Би-2

Варвара

EbMaj7/G - это такой вот аккорд:
E|-3|
B|-4|
G|-3|
D|-5|
A|-6|
E|-3|

Вступительный рифф (вообще проходит через всю песню):
G|-3~5~3-----3~5~7-5---3--5--3-2-|
D|-5~7~5-----5~7-----------------|
~ - это слайд, играется быстро

и в одном из мест играется так:
G|-3~5~3-----3~5~7-5---8-------2-|
D|-5~7~5-----5~7-----------------|

то есть своеобразная вариация D#, только на 3-ем ладу, он именно так и ставит.

Gm     EbMaj7/G(3)      Cm      F         Gm  EbMaj7/G(3)  Cm F
   Как грустно и очень обычно все вышло
   Ушла от меня и в ночь теперь слезно кричу
   Мне просто обидно шаги одиночества слышать
   И страшно подумать и вряд ли я жизнь доживу

Пр.:     Варвара, Варвара, Варвара, Варвара

В припеве играется рифф:
E|-6-6---6-8-8---8-8-8----5-5----5--|
B|-----8-----------------------6----|
G|-------------8-------5------------|

   С тобой я готов был бежать на край света
  Gm       A5        A#5         C5(8)
   Но ты изменила сама ты туда удрала
   Порвалась струна и теперь моя песенка спета
   И жизни мне нет   вот такие дела

Пр.: Варвара, Варвара, Варвара, Варвара

  Проигрыш на бас-гитаре:
 
G|---------------|------------|---2----3---|--------------|--5--5-----------|
D|------12-13-13-|------------|------------|-----12-13-13-|-----------------|
A|---------------|-3--5-6-5-3-|------------|--------------|-3--3------------|
E|--3-3----------|------------|--1----2----|-3-3----------|---------1--2----|

и т.д.

   Когда-то был счастлив а счастье так и ушло
   За счастьем несчастье так грустно вот так и пошло
   И ждать на крылечке уже бесполезно тебя
   Ох как далеко далеко далеко от меня ты

Пр. и Варвара ага-угу


Как грустно и очень обычно все вышло
Ушла от меня и в ночь теперь слезно кричу
Мне просто обидно - шаги одиночества слышу
И страшно подумать и вряд ли я жизнь доживу

Варвара
Варвара
Варвара
Варвара
С тобой я готов был бежать на край света
Но ты изменила, сама ты туда удрала
Порвалась струна и теперь моя песенка спета
И жизни мне нет - вот такие дела

Варвара
Варвара
Варвара
Варвара

Читать также:  Листопад - "Легион". Тексты и аккорды
Оцените статью
Новостной портал
Добавить комментарий